Garotos Podres Boris yeltsin Lyrics

sponsored links
Boris Yeltsin (Cifrada)

Riff 1
|---------------------------------------------|
|---------------------------------------------|
|---5--7---5--7-----7--9---10---10--7--5------|
|---5--7---5--7-----7--9---8----8---7--5------|
|---3--5---3--5-----5--7---8----8---5--3------|
|---------------------------------------------|

Riff 2 Leve em Ska * = repete
|-----------------------------------|
|-----------------------------------|
|--7*-----10*--------5*-------------|
|--7*------8*--------5*-------------|
|--5*------8*--------3*-------------|
|-----------------------------------|

Riff 3 = slide
|-----------------------------------|
|-----------------------------------|
|--57*----9-10*--9-10*--9--7-------|
|--57*----9--8*--9--8*--9--7-------|
|--35*----7--8*--7--8*--7--5-------|
|-----------------------------------|

Riff 4 2 x
|--------------------------------3-5---5-5-3-------|
|----3-5-6-3---6-6-5-3-5---6-6-8-----6--------6-3--|
|--7-----------------------------------------------|
|--------------------------------------------------|
|--------------------------------------------------|
|--------------------------------------------------|

__________________________________________________

Versão 1
--------
Musica - Boris Yeltsin - Garotos Podres
Autor: Paulo Haas (paulohaas@terra.com.br)

Outra musiquinha do Garotos Podres, é si ouvir e repetir os riffs na hora certa..
Qualquer coisa, mande um mail.

Riff 1

|---------------------------------------------|
|---------------------------------------------|
|---5--7---5--7-----7--9---10---10--7--5------|
|---5--7---5--7-----7--9---8----8---7--5------|
|---3--5---3--5-----5--7---8----8---5--3------|
|---------------------------------------------|
Riff 2

Leve em Ska
* = repete

|-----------------------------------|
|-----------------------------------|
|--7*-----10*--------5*-------------|
|--7*------8*--------5*-------------|
|--5*------8*--------3*-------------|
|-----------------------------------|

Riff 3

\ = slide

|-----------------------------------|
|-----------------------------------|
|--5\7*----9-10*--9-10*--9--7-------|
|--5\7*----9--8*--9--8*--9--7-------|
|--3\5*----7--8*--7--8*--7--5-------|
|-----------------------------------|

Riff 4

2 x
|--------------------------------3-5---5-5-3-------|
|----3-5-6-3---6-6-5-3-5---6-6-8-----6--------6-3--|
|--7-----------------------------------------------|
|--------------------------------------------------|
|--------------------------------------------------|
|--------------------------------------------------|
Versão 2
--------
Garotos Podres - Boris Yeltsin (Depois de 2 ou 3 Garrafas)
*************************************************************
tiago_ramone (tiago_durante@hotmail.com)
*************************************************************

A letra é embromação, é tudo chutado mas os riffs são esses:

Introdução
e-------------------------------------------------------------
B-------------------------------------------------------------
G--5----7--------9----10--------------------------------------
D--5----7--------9----10--10----------------------------------
A--3-/--5--(2x)--7-/--8---10----------------------------------
E-------------------------8-----------------------------------

Depois a música fica só nisso:
Esta parte vc tem que tocar tipo SKA, cada nota é batida várias vezes:

e-------------------------------------------------------------
B-------------------------------------------------------------
G--7--10------------------------------------------------------
D--7--10--10----(2x Tudo)-------------------------------------
A--5--8---10--------------------------------------------------
E---------8---------------------------------------------------

Esse pedaço é batendo normal nas cordas:
e-------------------------------------------------------------
B-------------------------------------------------------------
G--7----10--10--10----7---------------------------------------
D--7----10--10--10----7---------------------------------------
A--5-/--8---0---8--/--5---------------------------------------
E-------------------------------------------------------------

Agora é encaixar na música! é isso ae!
_____________________________________________________

Artists A to Z: